Przychodzi do mnie

smutna, piękna, na nią czekam

Ma w koszyku dla mnie

słowa dźwięki do piosenki

 

Pani Melancholia przynosi piosenki

w koszyku plecionym ze snu

Pani Melancholia popija herbatkę

dobrze że jesteś tu

 

Znam zaklęcie które

ją wywoła gdy wieczorem

Czekam na melodię

pieszcząc dłonią gryf gitary

 

Pani Melancholia ...

 

Kiedy mnie pytacie

skąd się biorą me piosenki

Mówię wam otwarcie

nie spod mojej wyszły ręki

 

To pani Melancholia...

(luty 1998)

 

-0---------0-------0-------0-------0------0-----
-3---------3-------2-------3-------2------3-----
-2---------1-------1-------2-------1------2-----
-3---------0-------2-------3-------2------3-----
-2---------2-------0-------0-------0------0-----
------------------------------------------------
Przychodzi do mnie smutna, piękna, na nią czekam

-0------------0-------0-------0----0------0-----
-3------------3-------2-------3----2------3-----
-2------------1-------1-------2----1------2-----
-3------------0-------2-------3----2------3-----
-2------------2-------0-------0----0------0-----
------------------------------------------------
Ma w koszyku dla mnie słowa dźwięki do piosenki

-------------------------------------------------------------
-5---------5---------3-------3---------1------------------5--
-5---------4---------3-------2---------2------------------4--
-4---------3---------2-------1---------3----------2-------5--
---------------------------------------0----------2-------4--
-5---------4---------3-------2-------------------------------
Pani Melancholia przynosi piosenki w koszyku plecionym ze snu

-------------------------------------------------------------
-5---------5--------3------3-----1----------------2----3-----
-5---------4--------3------2-----2----------------1----2-----
-4---------3--------2------1-----3----------2-----2----3-----
---------------------------------0----------2-----0----0-----
-5---------4--------3------2---------------------------------
Pani Melancholia popija herbatkę dobrze że jesteś tu

 

Śpiewnik Ryszard Sowiński


WYBIERZ AUTORA TEKSTÓW