Kiedy tylko zamkniesz oczy

Gdzieś u zbiegu dnia i nocy

Spokojnie mała jestem tu

Pilnuję twoich snów

 

Nie obawiaj się kochanie

Nic ci złego się nie stanie

Bezpiecznie miła śpij i śnij

Ja czuwam u twych drzwi

 

Kiedyś chciałbym moja mała

Byś przy łóżku mym czuwała

Byś rozgrzewała chłodny mrok

Ciepłem twoich rąk

 

(grudzień 1998)

 

uwaga: sugeruję kapodaster na 3 progu

intro

---------------------------------------------------------------
---------------------------------------------------------------
-2-0-2-0-------------------------------------------------------
-0-2-0-2-------------------------------------------------------
-3-3-3-3-------------------------------------------------------
-3-3-3-3-------------------------------------------------------

 

 

-----------------------------------------------------2---------
-----------------------------------------------------3----0----
-2---------0----------2---0--2---------------0-------2----1----
-0---------2----------0---2--0---------------2-------4----0----
-3---------3----------3---3--3---------------3-------2----2----
-3---------3----------3---3--3---------------3-------2----0----
Kiedy tylko zamkniesz oczy gdzieś na skraju dnia i nocy

---------------------------------------------------------------
--1-------1-----------1------3----0-------2---3----------------
--1-------1-----0-----0------2----1-------1---2----------------
--0-------0-----2-----2------3----0-------2---3----------------
----------1-----3-----0------2----2-------0---0----------------
--1-------------3-----------------0----------------------------
Spokojnie mała jestem tu pilnuję twoich snóóóóóóóów

 

Śpiewnik Ryszard Sowiński


WYBIERZ AUTORA TEKSTÓW