Lampy naftowej blask już padł

Na gryf gitary, stołu blat

Zaraz przyleci pierwsza ćma

Zaczynam grać zaczynam grać

 

Noc pisze dźwięki do mojej piosenki

la la la la

 

Księżyc znad lasu spojrzał w dół

Promienia blask rzucił na stół

Może napisze kilka słów

Do nowych nut do nowych nut

 

Noc pisze dźwięki do mojej piosenki

tu tu tu tu

 

Podnosi się poranna mgła

I myślę że trzeba iść spać

A pierwszy ptak mówi mi tak

Ja będę grać możesz iść spać ja będę grać możesz iść spać

 

Noc pisze dźwięki do mojej piosenki

ta ta ta ta

(lato 1998)

 

 

2-------------------------2------2---------4----2--------4--5------------
3---------------2---------2------3---------5----3--------5--6------------
2--------1------1---------2------2---------4----2--------4--5-1----------
4---------------2---------4------4---------6----4--------6--7-2----------
2--------2----------------4------2---------4----2--------4--5-2----------
2-------------------------2------2---------4----2--------4--5------------

Lampy naftowej blask już padł....Zaczynam grać zaczynam grać

-------------------------------------------------------------------------
8-----------8--------7---------7----2------------------------------------
8-----------7--------7---------6----2-------1--2-------------------------
7-----------6--------6---------5----1----------1-------------------------
8-----------7--------7---------60---2-------2--2-------------------------
-------------------------------------------------------------------------

Noc pisze dźwięki do mojej piosenki la la la la

Śpiewnik Ryszard Sowiński


WYBIERZ AUTORA TEKSTÓW