Teksty - Ryszard Sowiński
Drukuj

Banał

wszystko kiepskim jest banałem

filmem niskobudżetowym
wszystko tysiąc razy było
zblakło zbladło prześwietliło

 

chyba czas manatki zbierać
wniebowzięci recenzenci
jakikolwiek filmu finał
długim skwitują ziewnięciem

 

(Poznań 29.05.2000)

 

5-2-2-2------5------------------------2-----2-------2------------------------------------
2-4-3-3-2----2------------------------4-----3-------3--------2----------------------------
2-2-2-4-2----2------------------------2-----2-------4--------2---------------------------
2-2-2-2-2----2------------------------2-----2-------2--------2----------------------------
------------------------------------------------------------------------------------------
------------------------------------------------------------------------------------------

intro wszystko kiepskim jest banałem filmem niskobudżetowym....
2----------------------------------3-------5------------2-------------------------------------
3--------------------------2-------3-------5------------3--------------------------------------
2---------1----------------1----------------------------2-------------------------------------
4--------------------------2----------------------------------------------------------------
2---------2------------------------2-------4--------------------------------------------------
2----------------------------------3-------5-------------------------------------------------

 wszystko kiepskim jest banałem... wszystko tysiąc razy było....