uciekaj uciekaj

od świtu po zmierzch
ja cię będę czekał
ja cię będę szukał
a ty rób co chcesz

 

uciekaj uciekaj
od zmierzchu po świt
ja cię będę czekał
ja cię będę szukał
po kres moich dni

 

uciekaj uciekaj
z jawy w marzeń mgłę
ja cię będę czekał
ja cię będę szukał
aż odnajdę cię

(Poznań 29.05.2000)
 

 

----1-----------------------------------------------1------------------3-------------------
1-3---3-1-0----1-------3----------3---------1-------1------------------3-------------------
2--------------2-------2----------1-----------------2--------------------------------------
3-----------2--2-------3--------------------2----------------------------------------------
------------3----------2----------2------------------------------------2-------------------
-----------------------------------------------------------------------3-------------------

intro uciekaj uciekaj od świtu po zmierzch ja cię będę czekał ja cię będę szukał
-----------------------1-------------------------------------------------------------------
------------1------1-3---3-1-0------------------------------------------------------------
-------------------2-----------------------------------------------------------------------
2-----------2------3-----------2----------------------------------------------------------
3------------------------------3----------------------------------------------------------
------------------------------------------------------------------------------------------

 a ty rób co chcesz

 

Śpiewnik Ryszard Sowiński


WYBIERZ AUTORA TEKSTÓW